ISO-10303-21;
HEADER;
FILE_DESCRIPTION (( 'STEP AP214' ),
    '1' );
FILE_NAME ('GCC-411201.STEP',
    '2020-02-15T10:10:22',
    ( 'China' ),
    ( 'Microsoft' ),
    'SwSTEP 2.0',
    'SolidWorks 2018',
    '' );
FILE_SCHEMA (( 'AUTOMOTIVE_DESIGN' ));
ENDSEC;

DATA;
#1 = CYLINDRICAL_SURFACE ( 'NONE', #15, 25.39999999999999858 ) ;
#2 = CARTESIAN_POINT ( 'NONE',  ( 0.0000000000000000000, 0.0000000000000000000, 0.0000000000000000000 ) ) ;
#3 =( NAMED_UNIT ( * ) PLANE_ANGLE_UNIT ( ) SI_UNIT ( $, .RADIAN. ) );
#4 = SURFACE_STYLE_FILL_AREA ( #41 ) ;
#5 = VERTEX_POINT ( 'NONE', #29 ) ;
#6 = ORIENTED_EDGE ( 'NONE', *, *, #131, .T. ) ;
#7 = FACE_OUTER_BOUND ( 'NONE', #84, .T. ) ;
#8 = DIRECTION ( 'NONE',  ( 0.0000000000000000000, 0.9993908270190954291, 0.03489949670250874075 ) ) ;
#9 = CARTESIAN_POINT ( 'NONE',  ( 25.39999999999999858, 3.110602869834276865E-15, 6.000000000000000000 ) ) ;
#10 = EDGE_CURVE ( 'NONE', #79, #5, #81, .T. ) ;
#11 = VECTOR ( 'NONE', #65, 1000.000000000000000 ) ;
#12 =( NAMED_UNIT ( * ) SI_UNIT ( $, .STERADIAN. ) SOLID_ANGLE_UNIT ( ) );
#13 = PRODUCT_CONTEXT ( 'NONE', #88, 'mechanical' ) ;
#14 = PRODUCT ( 'GCC-411201', 'GCC-411201', '', ( #13 ) ) ;
#15 = AXIS2_PLACEMENT_3D ( 'NONE', #34, #33, #114 ) ;
#16 = LINE ( 'NONE', #9, #11 ) ;
#17 = CARTESIAN_POINT ( 'NONE',  ( 0.0000000000000000000, 0.0000000000000000000, 6.000000000000000000 ) ) ;
#18 = ORIENTED_EDGE ( 'NONE', *, *, #55, .T. ) ;
#19 = CARTESIAN_POINT ( 'NONE',  ( 0.0000000000000000000, 0.0000000000000000000, 0.0000000000000000000 ) ) ;
#20 = SURFACE_SIDE_STYLE ('',( #4 ) ) ;
#21 = DIRECTION ( 'NONE',  ( -0.0000000000000000000, -0.0000000000000000000, -1.000000000000000000 ) ) ;
#22 = ORIENTED_EDGE ( 'NONE', *, *, #105, .T. ) ;
#23 = ORIENTED_EDGE ( 'NONE', *, *, #105, .F. ) ;
#24 = COLOUR_RGB ( '',0.9411764705882352811, 0.9607843137254902244, 0.9686274509803921573 ) ;
#25 = AXIS2_PLACEMENT_3D ( 'NONE', #128, #62, #138 ) ;
#26 = PLANE ( 'NONE',  #97 ) ;
#27 = CLOSED_SHELL ( 'NONE', ( #104, #137, #38, #47 ) ) ;
#28 = ORIENTED_EDGE ( 'NONE', *, *, #131, .F. ) ;
#29 = CARTESIAN_POINT ( 'NONE',  ( 25.39999999999999858, 3.110602869834276865E-15, 5.113012454909410032 ) ) ;
#30 = CARTESIAN_POINT ( 'NONE',  ( -25.39999999999999858, 0.0000000000000000000, 0.0000000000000000000 ) ) ;
#31 =( NAMED_UNIT ( * ) SI_UNIT ( $, .STERADIAN. ) SOLID_ANGLE_UNIT ( ) );
#32 =( NAMED_UNIT ( * ) SI_UNIT ( $, .STERADIAN. ) SOLID_ANGLE_UNIT ( ) );
#33 = DIRECTION ( 'NONE',  ( -0.0000000000000000000, -0.0000000000000000000, -1.000000000000000000 ) ) ;
#34 = CARTESIAN_POINT ( 'NONE',  ( 0.0000000000000000000, 0.0000000000000000000, 6.000000000000000000 ) ) ;
#35 = ORIENTED_EDGE ( 'NONE', *, *, #89, .T. ) ;
#36 = PRODUCT_DEFINITION_CONTEXT ( 'detailed design', #99, 'design' ) ;
#37 = STYLED_ITEM ( 'NONE', ( #51 ), #44 ) ;
#38 = ADVANCED_FACE ( 'NONE', ( #7 ), #26, .F. ) ;
#39 = AXIS2_PLACEMENT_3D ( 'NONE', #17, #91, #107 ) ;
#40 = PRESENTATION_STYLE_ASSIGNMENT (( #101 ) ) ;
#41 = FILL_AREA_STYLE ('',( #112 ) ) ;
#42 = CARTESIAN_POINT ( 'NONE',  ( 25.39999999999999858, 3.110602869834276865E-15, 5.113012454909410032 ) ) ;
#43 = COLOUR_RGB ( '',0.9411764705882352811, 0.9607843137254902244, 0.9686274509803921573 ) ;
#44 = ADVANCED_BREP_SHAPE_REPRESENTATION ( 'GCC-411201', ( #126, #70 ), #72 ) ;
#45 = ORIENTED_EDGE ( 'NONE', *, *, #125, .F. ) ;
#46 =( GEOMETRIC_REPRESENTATION_CONTEXT ( 3 ) GLOBAL_UNCERTAINTY_ASSIGNED_CONTEXT ( ( #136 ) ) GLOBAL_UNIT_ASSIGNED_CONTEXT ( ( #113, #3, #31 ) ) REPRESENTATION_CONTEXT ( 'NONE', 'WORKASPACE' ) );
#47 = ADVANCED_FACE ( 'NONE', ( #110 ), #63, .F. ) ;
#48 = MECHANICAL_DESIGN_GEOMETRIC_PRESENTATION_REPRESENTATION (  '', ( #58 ), #71 ) ;
#49 =( BOUNDED_CURVE ( )  B_SPLINE_CURVE ( 3, ( #42, #87, #54, #119 ),
 .UNSPECIFIED., .F., .T. ) 
 B_SPLINE_CURVE_WITH_KNOTS ( ( 4, 4 ),
 ( 4.712388980384689674, 7.853981633974482790 ),
 .UNSPECIFIED. ) 
 CURVE ( )  GEOMETRIC_REPRESENTATION_ITEM ( )  RATIONAL_B_SPLINE_CURVE ( ( 1.000000000000000000, 0.3333333333333333703, 0.3333333333333333703, 1.000000000000000000 ) ) 
 REPRESENTATION_ITEM ( '' )  );
#50 = PRODUCT_RELATED_PRODUCT_CATEGORY ( 'part', '', ( #14 ) ) ;
#51 = PRESENTATION_STYLE_ASSIGNMENT (( #132 ) ) ;
#52 = ORIENTED_EDGE ( 'NONE', *, *, #55, .F. ) ;
#53 = CARTESIAN_POINT ( 'NONE',  ( -25.39999999999999858, 0.0000000000000000000, 6.000000000000000000 ) ) ;
#54 = CARTESIAN_POINT ( 'NONE',  ( -25.39999999999999858, -50.79999999999999716, 3.339037364728229651 ) ) ;
#55 = EDGE_CURVE ( 'NONE', #106, #90, #69, .T. ) ;
#56 = LINE ( 'NONE', #53, #78 ) ;
#57 = FACE_OUTER_BOUND ( 'NONE', #93, .T. ) ;
#58 = STYLED_ITEM ( 'NONE', ( #40 ), #126 ) ;
#59 = ORIENTED_EDGE ( 'NONE', *, *, #10, .T. ) ;
#60 = CIRCLE ( 'NONE', #25, 25.39999999999999858 ) ;
#61 = CYLINDRICAL_SURFACE ( 'NONE', #39, 25.39999999999999858 ) ;
#62 = DIRECTION ( 'NONE',  ( 0.0000000000000000000, 0.0000000000000000000, 1.000000000000000000 ) ) ;
#63 = PLANE ( 'NONE',  #82 ) ;
#64 =( LENGTH_UNIT ( ) NAMED_UNIT ( * ) SI_UNIT ( .MILLI., .METRE. ) );
#65 = DIRECTION ( 'NONE',  ( -0.0000000000000000000, -0.0000000000000000000, -1.000000000000000000 ) ) ;
#66 = DIRECTION ( 'NONE',  ( 0.0000000000000000000, 0.0000000000000000000, 1.000000000000000000 ) ) ;
#67 = APPLICATION_PROTOCOL_DEFINITION ( 'draft international standard', 'automotive_design', 1998, #88 ) ;
#68 = APPLICATION_PROTOCOL_DEFINITION ( 'draft international standard', 'automotive_design', 1998, #99 ) ;
#69 = CIRCLE ( 'NONE', #127, 25.39999999999999858 ) ;
#70 = AXIS2_PLACEMENT_3D ( 'NONE', #2, #66, #77 ) ;
#71 =( GEOMETRIC_REPRESENTATION_CONTEXT ( 3 ) GLOBAL_UNCERTAINTY_ASSIGNED_CONTEXT ( ( #103 ) ) GLOBAL_UNIT_ASSIGNED_CONTEXT ( ( #64, #121, #12 ) ) REPRESENTATION_CONTEXT ( 'NONE', 'WORKASPACE' ) );
#72 =( GEOMETRIC_REPRESENTATION_CONTEXT ( 3 ) GLOBAL_UNCERTAINTY_ASSIGNED_CONTEXT ( ( #134 ) ) GLOBAL_UNIT_ASSIGNED_CONTEXT ( ( #133, #76, #32 ) ) REPRESENTATION_CONTEXT ( 'NONE', 'WORKASPACE' ) );
#73 = DIRECTION ( 'NONE',  ( 1.000000000000000000, 0.0000000000000000000, -0.0000000000000000000 ) ) ;
#74 = CARTESIAN_POINT ( 'NONE',  ( -50.00000000000000000, -25.43167759485687185, 4.224918703830770284 ) ) ;
#75 = ORIENTED_EDGE ( 'NONE', *, *, #89, .F. ) ;
#76 =( NAMED_UNIT ( * ) PLANE_ANGLE_UNIT ( ) SI_UNIT ( $, .RADIAN. ) );
#77 = DIRECTION ( 'NONE',  ( 1.000000000000000000, 0.0000000000000000000, 0.0000000000000000000 ) ) ;
#78 = VECTOR ( 'NONE', #21, 1000.000000000000000 ) ;
#79 = VERTEX_POINT ( 'NONE', #109 ) ;
#80 = ORIENTED_EDGE ( 'NONE', *, *, #125, .T. ) ;
#81 =( BOUNDED_CURVE ( )  B_SPLINE_CURVE ( 3, ( #130, #94, #117, #139 ),
 .UNSPECIFIED., .F., .F. ) 
 B_SPLINE_CURVE_WITH_KNOTS ( ( 4, 4 ),
 ( 1.570796326794896558, 4.712388980384689674 ),
 .UNSPECIFIED. ) 
 CURVE ( )  GEOMETRIC_REPRESENTATION_ITEM ( )  RATIONAL_B_SPLINE_CURVE ( ( 1.000000000000000000, 0.3333333333333333703, 0.3333333333333333703, 1.000000000000000000 ) ) 
 REPRESENTATION_ITEM ( '' )  );
#82 = AXIS2_PLACEMENT_3D ( 'NONE', #74, #86, #8 ) ;
#83 = DIRECTION ( 'NONE',  ( 1.000000000000000000, 0.0000000000000000000, 0.0000000000000000000 ) ) ;
#84 = EDGE_LOOP ( 'NONE', ( #75, #52 ) ) ;
#85 = CARTESIAN_POINT ( 'NONE',  ( 0.0000000000000000000, 0.0000000000000000000, 0.0000000000000000000 ) ) ;
#86 = DIRECTION ( 'NONE',  ( 0.0000000000000000000, 0.03489949670250874075, -0.9993908270190954291 ) ) ;
#87 = CARTESIAN_POINT ( 'NONE',  ( 25.40000000000000924, -50.79999999999999716, 3.339037364728229651 ) ) ;
#88 = APPLICATION_CONTEXT ( 'automotive_design' ) ;
#89 = EDGE_CURVE ( 'NONE', #90, #106, #60, .T. ) ;
#90 = VERTEX_POINT ( 'NONE', #30 ) ;
#91 = DIRECTION ( 'NONE',  ( -0.0000000000000000000, -0.0000000000000000000, -1.000000000000000000 ) ) ;
#92 = DIRECTION ( 'NONE',  ( 0.0000000000000000000, 0.0000000000000000000, 1.000000000000000000 ) ) ;
#93 = EDGE_LOOP ( 'NONE', ( #59, #80, #18, #23 ) ) ;
#94 = CARTESIAN_POINT ( 'NONE',  ( -25.40000000000000924, 50.79999999999999716, 6.886987545090589968 ) ) ;
#95 = DIRECTION ( 'NONE',  ( 0.0000000000000000000, 0.0000000000000000000, 1.000000000000000000 ) ) ;
#96 = FACE_OUTER_BOUND ( 'NONE', #129, .T. ) ;
#97 = AXIS2_PLACEMENT_3D ( 'NONE', #19, #92, #73 ) ;
#98 = FILL_AREA_STYLE_COLOUR ( '', #24 ) ;
#99 = APPLICATION_CONTEXT ( 'automotive_design' ) ;
#100 = SURFACE_STYLE_FILL_AREA ( #111 ) ;
#101 = SURFACE_STYLE_USAGE ( .BOTH. , #120 ) ;
#102 = ORIENTED_EDGE ( 'NONE', *, *, #10, .F. ) ;
#103 = UNCERTAINTY_MEASURE_WITH_UNIT (LENGTH_MEASURE( 1.000000000000000082E-05 ), #64, 'distance_accuracy_value', 'NONE');
#104 = ADVANCED_FACE ( 'NONE', ( #57 ), #61, .T. ) ;
#105 = EDGE_CURVE ( 'NONE', #79, #90, #56, .T. ) ;
#106 = VERTEX_POINT ( 'NONE', #122 ) ;
#107 = DIRECTION ( 'NONE',  ( -1.000000000000000000, 0.0000000000000000000, 0.0000000000000000000 ) ) ;
#108 = PRODUCT_DEFINITION_FORMATION_WITH_SPECIFIED_SOURCE ( 'ÈÎºÎ', '', #14, .NOT_KNOWN. ) ;
#109 = CARTESIAN_POINT ( 'NONE',  ( -25.39999999999999858, 0.0000000000000000000, 5.113012454909410032 ) ) ;
#110 = FACE_OUTER_BOUND ( 'NONE', #123, .T. ) ;
#111 = FILL_AREA_STYLE ('',( #98 ) ) ;
#112 = FILL_AREA_STYLE_COLOUR ( '', #43 ) ;
#113 =( LENGTH_UNIT ( ) NAMED_UNIT ( * ) SI_UNIT ( .MILLI., .METRE. ) );
#114 = DIRECTION ( 'NONE',  ( -1.000000000000000000, 0.0000000000000000000, 0.0000000000000000000 ) ) ;
#115 = PRODUCT_DEFINITION_SHAPE ( 'NONE', 'NONE',  #118 ) ;
#116 = MECHANICAL_DESIGN_GEOMETRIC_PRESENTATION_REPRESENTATION (  '', ( #37 ), #46 ) ;
#117 = CARTESIAN_POINT ( 'NONE',  ( 25.39999999999998792, 50.79999999999999716, 6.886987545090589968 ) ) ;
#118 = PRODUCT_DEFINITION ( 'Î´Öª', '', #108, #36 ) ;
#119 = CARTESIAN_POINT ( 'NONE',  ( -25.39999999999999858, 0.0000000000000000000, 5.113012454909410032 ) ) ;
#120 = SURFACE_SIDE_STYLE ('',( #100 ) ) ;
#121 =( NAMED_UNIT ( * ) PLANE_ANGLE_UNIT ( ) SI_UNIT ( $, .RADIAN. ) );
#122 = CARTESIAN_POINT ( 'NONE',  ( 25.39999999999999858, 3.110602869834276865E-15, 0.0000000000000000000 ) ) ;
#123 = EDGE_LOOP ( 'NONE', ( #102, #28 ) ) ;
#124 = SHAPE_DEFINITION_REPRESENTATION ( #115, #44 ) ;
#125 = EDGE_CURVE ( 'NONE', #5, #106, #16, .T. ) ;
#126 = MANIFOLD_SOLID_BREP ( 'ÇÐ³ý-À­Éì1', #27 ) ;
#127 = AXIS2_PLACEMENT_3D ( 'NONE', #85, #95, #83 ) ;
#128 = CARTESIAN_POINT ( 'NONE',  ( 0.0000000000000000000, 0.0000000000000000000, 0.0000000000000000000 ) ) ;
#129 = EDGE_LOOP ( 'NONE', ( #45, #6, #22, #35 ) ) ;
#130 = CARTESIAN_POINT ( 'NONE',  ( -25.39999999999999858, 0.0000000000000000000, 5.113012454909410032 ) ) ;
#131 = EDGE_CURVE ( 'NONE', #5, #79, #49, .T. ) ;
#132 = SURFACE_STYLE_USAGE ( .BOTH. , #20 ) ;
#133 =( LENGTH_UNIT ( ) NAMED_UNIT ( * ) SI_UNIT ( .MILLI., .METRE. ) );
#134 = UNCERTAINTY_MEASURE_WITH_UNIT (LENGTH_MEASURE( 1.000000000000000082E-05 ), #133, 'distance_accuracy_value', 'NONE');
#135 = PRESENTATION_LAYER_ASSIGNMENT (  '', '', ( #37 ) ) ;
#136 = UNCERTAINTY_MEASURE_WITH_UNIT (LENGTH_MEASURE( 1.000000000000000082E-05 ), #113, 'distance_accuracy_value', 'NONE');
#137 = ADVANCED_FACE ( 'NONE', ( #96 ), #1, .T. ) ;
#138 = DIRECTION ( 'NONE',  ( 1.000000000000000000, 0.0000000000000000000, 0.0000000000000000000 ) ) ;
#139 = CARTESIAN_POINT ( 'NONE',  ( 25.39999999999999858, 3.110602869834276865E-15, 5.113012454909410032 ) ) ;
#140 = PRESENTATION_LAYER_ASSIGNMENT (  '', '', ( #58 ) ) ;
ENDSEC;
END-ISO-10303-21;
